ACDC You shook me all night long

 

-|-3--|-5--3-3---3-2-0-|----2-|---------|-3--|-5-3-3---3-2-3-||----|--------|-
-|-3--|-3------3-----3-|----3-|---------|-3--|-3-----3-----3-||----|--------|-
-|-0--|-0--------------|-33-2-|-----2---|-0--|-0-----------0-||----|-5-5--5-|-
-|----|----------------|----0-|-3-4---3-|----|-------------0-||-5--|-5-55-5-|-
-|----|----------------|------|---------|----|---------------||-5--|-3-35-3-|-
-|----|----------------|------|---------|----|---------------||-3--|----3---|-
opening D 

AC/DC doesnt play the verse in tabs,they play it in chords and here they are

G C G C G D G D G D G 

G
She was a fast machine,
C G C G 
She kept her moter clean,
D G D
Was the best damn women i had ever seen,
G D G D
She had the sightless eyes

Telling me no lies
G C G C
Knockin' me out with those American thighs
D G D G
Taking more than her share

Had me fighting for air
G C G C
She told me to come but I was already there

'Cause the walls start shaking
The earth was quaking
My mind was aching
And we were makin it and you -



Shook me all night long
Yeah you shook me all night long
G
Working double time
G C G C
On the seduction line
D G D G
She was one of a kind, she's just mine all mine
G
She wanted no applause
G C G C
Just another course
D G D G
Made a meal out of me and came back for more
G
Had to cool me down
G C G C
To take another round
D G D G
Now I'm back in the ring to take another swing

'Cause the walls were shaking
The earth was quaking
My mind was aching
And we were makin it and you -

CHORUS

And knocked me out and then you
Shook me all night long
You had me shakin' and you
Shook me all night long
Yeah you shook me
Well you took me

You really took me and you
Shook me all night long
Ooo
oh you
Shook me all night long
Ye
ah, yeah, you
Shook me all night long

Guitar Solo

Your really took me and you
Yeah you shook me, yeah you shook me
All night long 






|---------------------------|-----------||---------------------------|----|-
|---------------------------|-----------||---------------------------|----|-
|-0-0---------0-------0-----|-7-77--5-5-||-0-0---------0-------0-----|-7--|-
|-0-0-------2---2---0---0---|-7-77--5-5-||-0-0-------2---2---0---0---|-7--|-
|-2-2-0-2-3-------2-------0-|-5-55--3-3-||-2-2-0-2-3-------2-------0-|-5--|-
|-3-3-----------------------|-----------||-3-3-----------------------|----|-
^chores 3x 

------|-----------|----3------------|---------|-----------|-----------------|-
------|-----------|------3-6--------|---------|-----------|-----6-6-----8-8-|-
-77--5|-77777777--|-5^-------5^-3---|---------|-3-------3-|-5/7-----7/9-----|-
-77--5|-77777777--|---------------5-|-5---3-5-|----3--3---|-----------------|-
-55--3|-55555555--|-----------------|---3-----|-----3-----|-----------------|-
------|-----------|-----------------|---------|-----------|-----------------|-
hold-----release 
^guitar solo
-|---------||-10------|--------------|-13^13^-10-13-10-|-----------------|----
-|----8-10-||----10-8-|-11-11--8---8-|-----------------|-13-11--------13-|----
-|-10------||---------|----------9---|-----------------|-------12/-15----|----
-|---------||---------|--------------|-----------------|-----------------|----
-|---------||---------|--------------|-----------------|-----------------|----
-|---------||---------|--------------|-----------------|-----------------|----


-|-------------||----------------------|-18^18^-17-15-17-|----15----15-|------
-|----16----16-||----------------------|-----------------|-17----18----|------
-|-15----15----||-15-13----15-13----13-|-----------------|-------------|------
-|-------------||-------15-------15----|-----------------|-------------|------
-|-------------||----------------------|-----------------|-------------|------
-|-------------||----------------------|-----------------|-------------|------


-|-------------|----15-||----15-17-15-||---------------------------|------|---
-|----------15-|-17----||-17----------||---------------------------|------|---
-|-17-17-15----|-------||-------------||-0-0---------0-------0-----|-7-77-|---
-|-------------|-------||-------------||-0-0-------2---2---0---0---|-7-77-|---
-|-------------|-------||-------------||-2-2-0-2-3-------2-------0-|-5-55-|---
-|-------------|-------||-------------||-3-3-----------------------|------|---
^do this to the end

-|------||----|-----------|---------------------|----------|------------------
-|------||----|-----------|---------------------|----------|------------------
-|-5--5-||-7--|-7-77--5-7-|-77777777777777777---|----------|------------------
-|-5--5-||-7--|-7-77--5-7-|-77777777777777777-5-|----------|------------------
-|-3--3-||-5--|-5-55--3-5-|-55555555555555555-5-|----------|------------------
-|------||----|-----------|-------------------3-|----------|------------------
4x