Lake Of Fire Tablature By Nirvana

 



Lake of Fire - Nirvana w/ Meat Puppets
From Nirvana's Unplugged session

Tab transcription by Mark van 't Zet (tmvtzet@cs.vu.nl)



USED CHORDS

A x02220
Bb x13331
C5 x355xx
D5 x577xx
Dm xx0231
Dsus2 xx0230
F5 133xxx
Gm 3553xx




INTRO/MAIN - Chord names refer to parts of this tab so the 
second 'GFC' is the same as the first 'GFC' etc.

GFC GDC 
|-------------------------------------------------------
|-------------------------------------------------------
|-3--3------------3-----3--3--------5---5---5-3---------
|-5--5----5-3--3--3-----5--5--x-x-x-5---5---5-3---------
|-5--5----5-3--3--1-----5--5--x-x-x-3---3---3-1---------
|-3--3----3\1--1--------3--3----------------------------
|
|-------------------------------------------------------
|-----------------------------------5b6r5b6r5-3---------
|-----------------------------------5b6r5b6r5-3---------
|-------------------------------------------------------
|-------------------------------------------------------
|-------------------------------------------------------

GFC DFC
|--------------------------------
|--------------------------------
|-O/-------5--5-----5------------
|-/O-------5--5-----5--3--3--5---
|----------3--3-----3--3--3--5---
|----------------------1--1--3---

GFG 
|--------------------------------
|--------------------------------
|-3---3--------------------------
|-5---5-------5---3---3---5------
|-5---5-------5---3---3---5------
|-3---3-------3---1---1---3------
|
|--------------------------------
|--------------------------------
|--------------------------------
|---------------------3----------
|-5-5-5-5-5-5-5-5-3---1---5------
|-3-3-3-3-3-3-3-3-1-------3------

GFG
|-----
|-----
|-O/--
|-/O--
|-----
|-----
|
|-----------------------------------------
|----11~-11~-11~-11~-11~-11~\--6~--6~/8~--
|-/10--10~-10~-10~-10~-10~--\5~--5~--/7~--
|-----------------------------------------
|-----------------------------------------
|-----------------------------------------


VERSE 1 - Play main part


CHORUS

Dm - Bb - Dm - A -
Dm - Bb - C - Dm Dsus2


VERSE 2 - Play main part


CHORUS


VERSE 3 - Play main part, but play both GFG parts twice!


SOLO - Transcribed for the sake of completeness


------3---------3---------------------------------------
--2-3---3--6b7------6-----------------------------------
----------------------5-3-------------------------------
--------------------------5-3----------------------3-5--
------------------------------5-4-3----------3-4-5------
------------------------------------6-3----6------------

--------------------------------------------------------
--3b4---------------6~----6~----------------------------
--3b4-------(0)-5/7----7~----7\5--3---------------------
-------5----------------------------5-------0-3---3-----
-----------------------------------------/5-----5---5---
--------------------------------------------------------

-------------------------------3------------------------
--------------------6~------/3---3-7-3------------------
----------------5/7----7\--------------3-5--------------
-------------------------------------------3---5--------
--3-----------------------------------------------------
----6-3-3-3----------------------------------3----------

--------------------------------------------------------
--3b4------3b4-----3b4----------------------------------
--3b4------3b4-----3b4----------------------------------
------5-5------5-------5-3------------------------3-----
---------------------------5-4-3------------3-4-5-------
---------------------------------6-3----3-6-------------

----------------------
----------------------
------(3)-----(4)-----
--3h5-----(3)-----5---
----------------------
----------------------